Kung Fu Fighting


Retour à la liste des tablatures

Accordage standard et CAPO 3
(les frettes et les accords sont relatifs au capo)

Intro

    |       |   C   |       |         |       |   C   |       |
e||-0---------------0---------------|-3---------------3---------------|
B||-----------1---------------1-----|-----------1---------------1-----|
G||-------0---------------0---------|-------0---------------0---------|
D||-----2-------2-------2-------2---|-----2-------2-------2-------2---|
A||-3-------3-------3-------3-------|-3-------3-------3-------3-------|
E||---------------------------------|---------------------------------|

    |       |   C   |       |         |       |   C   |       |
e||-0---------------0---------------|-0---------------0---------------|
B||-----------1---------------1-----|-----------1---------------1-----|
G||-------0---------------0---------|-------0---------------0---------|
D||-----2-------2-------2-------2---|-----2-------2-------2-------2---|
A||-3-------3-------3-------3-------|-3-------3-------3-------3-------|
E||---------------------------------|---------------------------------|

Refrain

    |       |   C   |       |         |       | Fmaj7 |       |
e||-0---------------0---------------|-----------------0---------------|
B||-----------1---------------1-----|-------1-------------------1-----|
G||-------0---------------0---------|-0h2-------2-----------2---------|
D||-----2-------2-------2-------2---|-----3-------3-------3-------3---|
A||-3-------3-------3-------3-------|---------3-------3-------3-------|
E||---------------------------------|---------------------------------|

    |       |   C   |       |         |       | Fmaj7 |       |
e||-0---------------0---------------|-----------------0---------------|
B||-----------1---------------1-----|-------1-------------------1-----|
G||-------0---------------0---------|-0h2-------2-----------2---------|
D||-----2-------2-------2-------2---|-----3-------3-------3-------3---|
A||-3-------3-------3-------3-------|---------3-------3-------3-------|
E||---------------------------------|---------------------------------|

    |       |   C   |       |         |       | Fmaj7 |       |
e||-----------------0---------------|-----------------0h1-------------|
B||-1-----1-------------------1-----|-------1-------------------1-----|
G||-----------0-----------0---------|-0h2-------2-----------2---------|
D||-----2-------2-------2-------2---|-----3-------3-------3-------3---|
A||-3-------3-------3-------3-------|---------3-------3-------3-------|
E||---------------------------------|---------------------------------|

    |       |   C   |       |         |       | Fmaj7 |       |
e||-----------------0---------------|-----------------0---------------|
B||-1---------1---------------1-----|-1---------1---------------1-----|
G||-------0---------------0---------|-------2---------------2---------|
D||-----2-------2-------2-------2---|-----3-------3-------3-------3---|
A||-3-------3-------3-------3-------|-3-------3-------3-------3-------|
E||---------------------------------|---------------------------------|

Couplet

    |       |   C   |       |         |       |  Am   |       |
e||-0-------------------------------|-----------------0---------------|
B||-----------1-----3---------1-----|-1---------1---------------1-----|
G||-------0---------------0---------|-------2---------------2---------|
D||-----2-------2-------2-------2---|-----2-------2-------2-------2---|
A||-3-------3-------3-------3-------|-0-------0-------0-------0-------|
E||---------------------------------|---------------------------------|

    |       |   C   |       |         |       |  Am   |       |
e||-----------------0---------------|-0---------------0---------------|
B||-1---------1---------------1-----|-----------1---------------1-----|
G||-------0---------------0---------|-------2---------------2---------|
D||-----2-------2-------2-------2---|-----2-------2-------2-------2---|
A||-3-------3-------3-------3-------|-0-------0-------0-------0-------|
E||---------------------------------|---------------------------------|

    |       |   C   |       |         |       |  Am   |       |
e||-0---------------0---------------|-0---------------0---------------|
B||-----------1---------------1-----|-----------1---------------1-----|
G||-------0---------------0---------|-------2---------------2---------|
D||-----2-------2-------2-------2---|-----2-------2-------2-------2---|
A||-3-------3-------3-------3-------|-0-------0-------0-------0-------|
E||---------------------------------|---------------------------------|

    |       |   C   |       |         |       |   G   |       |
e||-0---------------0---------------|-----------------3---------------|
B||-----------1---------------1-----|-0---------0---------------0-----|
G||-------0---------------0---------|-------0---------------0---------|
D||-----2-------2-------2-------2---|-----0-------0-------0-------0---|
A||-3-------3-------3-------3-------|---------------------------------|
E||---------------------------------|-3-------3-------3-------3-------|

Refrain

    |       |   C   |       |         |       | Fmaj7 |       |
e||-3---------------0---------------|-----------------1---------------|
B||-----------1---------------1-----|-------1-------------------1-----|
G||-------0---------------2---------|-0h2-------2-----------2---------|
D||-----2-------2-------2-------2---|-----3-------3-------3-------3---|
A||-3-------3-------3-------3-------|---------3-------3-------3-------|
E||---------------------------------|---------------------------------|

    |       |   C   |       |         |       | Fmaj7 |       |
e||-0---------------3---------------|-0---------------1---------------|
B||-----------1---------------1-----|-----------1---------------1-----|
G||-------0---------------0---------|-------2---------------2---------|
D||-----2-------2-------2-------2---|-----3-------3-------3-------3---|
A||-3-------3-------3-------3-------|-3-------3-------3-------3-------|
E||---------------------------------|---------------------------------|

    |       |   C   |       |         |       | Fmaj7 |       |
e||-0---------------3---------------|-0---------------1---------------|
B||-----------1---------------1-----|-----------1---------------1-----|
G||-------0---------------0---------|-------2---------------2---------|
D||-----2-------2-------2-------2---|-----3-------3-------3-------3---|
A||-3-------3-------3-------3-------|-3-------3-------3-------3-------|
E||---------------------------------|---------------------------------|

    |       |   C   |       |         |       | Fmaj7 |       |
e||-0---------------3---------------|-0---------------1---------------|
B||-----------1---------------1-----|-----------1---------------1-----|
G||-------0---------------0---------|-------2---------------2---------|
D||-----2-------2-------2-------2---|-----3-------3-------3-------3---|
A||-3-------3-------3-------3-------|-3-------3-------3-------3-------|
E||---------------------------------|---------------------------------|

Couplet

    |       |   C   |       |         |       |  Am   |       |
e||-0---------------0---------------|-0---------------0---------------|
B||-----------1---------------1-----|-----------1---------------1-----|
G||-------0---------------0---------|-------2---------------2---------|
D||-----2-------2-------2-------2---|-----2-------2-------2-------2---|
A||-3-------3-------3-------3-------|-0-------0-------0-------0-------|
E||---------------------------------|---------------------------------|

    |       |   C   |       |         |       |  Am   |       |
e||-0---------------0---------------|-0---------------0---------------|
B||-----------1---------------1-----|-----------1---------------1-----|
G||-------0---------------0---------|-------2---------------2---------|
D||-----2-------2-------2-------2---|-----2-------2-------2-------2---|
A||-3-------3-------3-------3-------|-0-------0-------0-------0-------|
E||---------------------------------|---------------------------------|

    |       |   C   |       |         |       |  Am   |       |
e||-0---------------0---------------|-0---------------0---------------|
B||-----------1---------------1-----|-----------1---------------1-----|
G||-------0---------------0---------|-------2---------------2---------|
D||-----2-------2-------2-------2---|-----2-------2-------2-------2---|
A||-3-------3-------3-------3-------|-0-------0-------0-------0-------|
E||---------------------------------|---------------------------------|

    |       |   C   |       |         |       |   G   |       |
e||-0---------------0---------------|-3---------------3---------------|
B||-----------1---------------1-----|-----------0---------------0-----|
G||-------0---------------0---------|-------0---------------0---------|
D||-----2-------2-------2-------2---|-----0-------0-------0-------0---|
A||-3-------3-------3-------3-------|---------------------------------|
E||---------------------------------|-3-------3-------3-------3-------|

Refrain

    |       |   C   |       |         |       | Fmaj7 |       |
e||-3---------------0---------------|-0---------------1---------------|
B||-----------1---------------1-----|-----------1---------------1-----|
G||-------0---------------0---------|-------2---------------2---------|
D||-----2-------2-------2-------2---|-----3-------3-------3-------3---|
A||-3-------3-------3-------3-------|-3-------3-------3-------3-------|
E||---------------------------------|---------------------------------|

    |       |   C   |       |         |       | Fmaj7 |       |
e||-0---------------0---------------|-1---------------0h1-------------|
B||-----------1---------------1-----|-----------1---------------1-----|
G||-------0---------------0---------|-------2---------------2---------|
D||-----2-------2-------2-------2---|-----3-------3-------3-------3---|
A||-3-------3-------3-------3-------|-3-------3-------3-------3-------|
E||---------------------------------|---------------------------------|

    |       |   C   |       |         |       | Fmaj7 |       |
e||-0---------------0---------------|-0---------------1---------------|
B||-----------1---------------1-----|-----------1---------------1-----|
G||-------0---------------0---------|-------2---------------2---------|
D||-----2-------2-------2-------2---|-----3-------3-------3-------3---|
A||-3-------3-------3-------3-------|-3-------3-------3-------3-------|
E||---------------------------------|---------------------------------|

    |       |   C   |       |         |       | Fmaj7 |       |
e||-0-------------------------------|-0---------------1---------------|
B||-----------1-----3---------1-----|-----------1---------------1-----|
G||-------0---------------0---------|-------2---------------2---------|
D||-----2-------2-------2-------2---|-----3-------3-------3-------3---|
A||-3-------3-------3-------3-------|-3-------3-------3-------3-------|
E||---------------------------------|---------------------------------|



    |       |   C   |       |         |       | Fmaj7 |       |
e||-3---------------0---------------|-1---------1-----1---------0-----|
B||-----------1---------------1-----|-------1---------------1---------|
G||-------0---------------0---------|-----2-------2-------2-------2---|
D||-----2-------2-------2-------2---|-3-------3-------3-------3-------|
A||-3-------3-------3-------3-------|---------------------------------|
E||---------------------------------|---------------------------------|

    |       |   C   |       |         |       | Fmaj7 |       |
e||-0---------0-----0---------------|-1---------------1---------------|
B||-------3-------------------1-----|-----------1---------------1-----|
G||-----2-----------------0---------|-------2---------------2---------|
D||-------------2-------2-------2---|-----3-------3-------3-------3---|
A||-3-------3-------3-------3-------|-3-------3-------3-------3-------|
E||---------------------------------|---------------------------------|

    |       |   C   |       |         |       | Fmaj7 |       |
e||-3---------------0---------------|-1---------------1---------------|
B||-----------1---------------1-----|-----------1---------------1-----|
G||-------0---------------0---------|-------2---------------2---------|
D||-----2-------2-------2-------2---|-----3-------3-------3-------3---|
A||-3-------3-------3-------3-------|-3-------3-------3-------3-------|
E||---------------------------------|---------------------------------|

    |   G   |       |  Am   |
e||-3-------------------------5-----|-5-------------------------------|
B||---------------------------------|---------------------------------|
G||-----------4-----------5---------|---------------------------------|
D||-------5-------------7-------7---|---------------------------------|
A||-----5-------5-------------------|---------------------------------|
E||-3-------3-------5-------5-------|-5-------------------------------|

Paroles

Everybody was kung-fu fighting
Those cats were fast as lightning
In fact it was a little bit frightning
But they fought with expert timing

They were funky China men from funky Chinatown
They were chopping them up and they were chopping them down
It's an ancient Chinese art and everybody knew their part
From a feint into a slip, and kicking from the hip

Everybody was kung-fu fighting
Those cats were fast as lightning
In fact it was a little bit frightning
But they fought with expert timing

There was funky Billy Chin and little Sammy Chung
He said here comes the big boss, lets get it on
We took a bow and made a stand, started swinging with the hand
The sudden motion made me skip now we're into a brand-new trip

Everybody was kung-fu fighting
Those cats were fast as lightning
In fact it was a little bit frightning
But they did it with expert timing
With expert timing

Par Robin Gullo - Remonter | Me contacter | Livre d'or | Plan du site |
Je n'ai aucun droit sur les pochettes d'album, elles seront supprimées sur demande.