Comets


Retour à la liste des tablatures

Guitare : Accordage standard et CAPO "SHORT-CUT" 1 (011100)
Ukulélé : Accordage GCEA et CAPO 1
(les frettes et les accords sont relatifs au capo)

Un capo "short-cut" est un capo partiel, sur 3 cordes seulement (A,D,G). C'est assez dur d'en trouver. Si vous ne voulez pas en acheter, vous pouvez toujours jouer avec votre capo habituel mis sur 4 cordes (E,A,D,G) mais vous ne pourrez pas jouer la basse de l'accord Eb.
Parfois Mark adapte les accords pour utiliser un capo normal en 1.

Accords

Capo "short-cut" :
(les frettes sont relatives au capo 1 même pour les cordes sans capo)

     Cm  D7  Gm  Eb  D   Bb  Gm* F
e||--x---x---3---O---x---1---3---1--|
B||--4---3---O---O---3---3---3---1--|
G||--5---5---0---0---2---3---3---2--| 0: corde à vide avec capo
D||--5---4---0---1---0---3---5---3--| O: corde à vide sans capo
A||-[3]-[0]--x---1---0--[1]--5---3--|
E||---------[3]-[O]-[2]-----[3]-[1]-|
                 |
(On ne peut pas atteindre cette note avec un capo normal)

Capo 1 :

     Cm  D7  Gm  Eb  D   Bb  Gm* F
e||--x---x---x---x---x---1---3---1--|
B||--4---3---3---4---3---3---3---1--|
G||--5---5---3---3---2---3---3---2--|
D||--5---4---0---1---0---3---5---3--|
A||-[3]-[0]--x--[1]--0--[1]--5---3--|
E||---------[3]-----[2]-----[3]-[1]-|

Ukulélé :

     Cm  D7  Gm  Eb  D   Bb  Gm* F
A||--3---0---1---1---0---1---1---0--|
E||--3---2---3---3---2---1---3---1--|
C||--3---2---2---3---2---2---2---0--|
G||--5---2---0---0---2---3---0---2--|

Main droite

Guitare :

Le motif est le même pour tous les accords, à part pour les basses.

      Basse - Corde G - Accord - Corde B
     (pouce)  (index)   (pouce   (index)
                       + index)

Pour chaque accord (au-dessus), la basse est entre crochets.

Exemple (intro / couplet):

    |  Cm   |       |   D7  |         |       |  Gm   |       |
e||---------------------------------|---------------------------------|
B||-------4-------4-------3-------3-|-------O-------O-------O-------O-|
G||---5-5-----5-5-----5-5-----5-5---|---0-0-----0-0-----0-0-----0-0---|
D||-----5-------5-------4-------4---|-----0-------0-------0-------0---|
A||-3---3---3---3---0---0---0---0---|-----x-------x-------x-------x---|
E||---------------------------------|-3-------3-------3-------1-------|
                                                              !!
    |  Eb   |       |   D   |         |       |  Gm   |       |
e||---------------------------------|---------------------------------|
B||-------O-------O-------3-------3-|-------O-------O-------O-------O-|
G||---0-0-----0-0-----2-2-----2-2---|---0-0-----0-0-----0-0-----0-0---|
D||-----1-------1-------0-------0---|-----0-------0-------0-------0---|
A||-----1-------1-------0-------0---|-----x-------x-------x-------x---|
E||-O-------O-------2-------2-------|-3-------3-------3-------3-------|

Ukulélé :

 | ' ' ' | ' ' '
-0---0-0---0-0-0-
-0---0-0---0-0-0-    | temps
-0---0-0---0-0-0-    ' quart de temps
-0---0-0---0-0-0-

Intro / Couplet (x 2)

                            |x2 en fin de chaque couplet|
---------------------------------------------------------
|  Cm  |  D7  |  Gm  |  Gm  |  Eb  |   D  |  Gm  |  Gm  |
---------------------------------------------------------

Refrain

---------------------------------------------------------
|  Bb  |  Cm  |  Gm* |  Gm* |  Bb  |  Cm  |  Gm* |  Gm* |
---------------------------------------------------------
|   F  |   F  |   D  |   D  |  Eb  |   D  |  Gm  |  Gm  |
---------------------------------------------------------
                            | x4 à la fin de la chanson |

Paroles

Intro : Cm D7 Gm Gm Eb D Gm Gm

       Cm                D7           Gm
By the meeting of the roads I just fell to my knees
          Eb     D            Gm
When I knew I had to make a choice.
          Cm         D7         Gm
It's a shame, you said that I may never know
      Eb     D       Gm
How far I can sometimes go. (x2)

         Bb      Cm         Gm*
While my boat is drifting away
       Bb       Cm      Gm*
By the shore of Miami Bay
          F
I'm still trying to figure out
       D                           Eb D Gm Gm
The end of what I was starting to say.

        Cm            D7                  Gm
And you found all the footprints that I left in the lawn
         Eb        D        Gm
When I spied on you every night.
      Cm               D7              Gm
And I wish there was a secret that you said in your sleep,
        Eb  D          Gm
Just a word that I could keep. (x2)

         Bb      Cm         Gm*
While my boat is drifting away
       Bb       Cm      Gm*
By the shore of Miami Bay
          F
I'm still trying to figure out
       D                           Eb D Gm Gm
The end of what I was starting to say.

      Cm           D7         Gm
And I wish I was a comet to crash on your field
Eb        D       Gm
Just to be remembered.
      Cm           D7         Gm
And I wish I was a comet to crash at your feet
Eb        D       Gm
Just to be remembered.

         Bb      Cm         Gm*
While my boat is drifting away
       Bb       Cm      Gm*
By the shore of Miami Bay
          F
I'm still trying to figure out
       D                           Eb D Gm Gm
The end of what I was starting to say...
             Eb D Gm Gm
Starting to say... (x3)

Par Robin Gullo - Remonter | Me contacter | Livre d'or | Plan du site |
Je n'ai aucun droit sur les pochettes d'album, elles seront supprimées sur demande.